ISO-10303-21;
HEADER;
FILE_DESCRIPTION (( 'STEP AP203' ),
    '1' );
FILE_NAME ('BK7-LPBSC-12.7-1064.STEP',
    '2020-12-22T03:11:07',
    ( '' ),
    ( '' ),
    'SwSTEP 2.0',
    'SolidWorks 2020',
    '' );
FILE_SCHEMA (( 'CONFIG_CONTROL_DESIGN' ));
ENDSEC;

DATA;
#1 = ADVANCED_FACE ( 'NONE', ( #112 ), #105, .T. ) ;
#2 = PLANE ( 'NONE',  #10 ) ;
#3 = MANIFOLD_SOLID_BREP ( '¾µÏ', #297 ) ;
#4 = CARTESIAN_POINT ( 'NONE',  ( -6.349999999999999645, -6.350000000000000533, -6.349999999999999645 ) ) ;
#5 = EDGE_LOOP ( 'NONE', ( #79, #244, #40 ) ) ;
#6 = PERSON_AND_ORGANIZATION ( #71, #277 ) ;
#7 = DIRECTION ( 'NONE',  ( 1.000000000000000000, 0.000000000000000000, 0.000000000000000000 ) ) ;
#8 = EDGE_CURVE ( 'NONE', #129, #132, #13, .T. ) ;
#9 = EDGE_LOOP ( 'NONE', ( #59, #235, #257 ) ) ;
#10 = AXIS2_PLACEMENT_3D ( 'NONE', #95, #201, #146 ) ;
#11 = ORIENTED_EDGE ( 'NONE', *, *, #240, .T. ) ;
#12 = APPLICATION_CONTEXT ( 'configuration controlled 3d designs of mechanical parts and assemblies' ) ;
#13 = LINE ( 'NONE', #80, #17 ) ;
#14 = CARTESIAN_POINT ( 'NONE',  ( -6.349999999999998757, -6.349999999999997868, 6.349999999999999645 ) ) ;
#15 = CARTESIAN_POINT ( 'NONE',  ( 6.349999999999996980, 6.349999999999996980, 6.349999999999999645 ) ) ;
#16 = VECTOR ( 'NONE', #7, 1000.000000000000000 ) ;
#17 = VECTOR ( 'NONE', #216, 1000.000000000000000 ) ;
#18 = CARTESIAN_POINT ( 'NONE',  ( 6.349999999999998757, 6.349999999999998757, 6.349999999999999645 ) ) ;
#19 = CARTESIAN_POINT ( 'NONE',  ( 6.349999999999998757, 6.349999999999998757, -6.349999999999999645 ) ) ;
#20 = PRODUCT_DEFINITION_SHAPE ( 'NONE', 'NONE',  #88 ) ;
#21 = CARTESIAN_POINT ( 'NONE',  ( 6.349999999999996980, 6.349999999999996980, 6.349999999999999645 ) ) ;
#22 = VECTOR ( 'NONE', #319, 1000.000000000000000 ) ;
#23 = EDGE_CURVE ( 'NONE', #301, #290, #217, .T. ) ;
#24 = CARTESIAN_POINT ( 'NONE',  ( 6.349999999999999645, -6.350000000000000533, -6.349999999999999645 ) ) ;
#25 = PLANE ( 'NONE',  #124 ) ;
#26 = VECTOR ( 'NONE', #85, 1000.000000000000000 ) ;
#27 = ORIENTED_EDGE ( 'NONE', *, *, #286, .F. ) ;
#28 = DIRECTION ( 'NONE',  ( -2.220446049250312588E-16, 1.000000000000000000, 0.000000000000000000 ) ) ;
#29 = VERTEX_POINT ( 'NONE', #15 ) ;
#30 = PERSON_AND_ORGANIZATION_ROLE ( 'creator' ) ;
#31 = VERTEX_POINT ( 'NONE', #83 ) ;
#32 = AXIS2_PLACEMENT_3D ( 'NONE', #263, #289, #163 ) ;
#33 = APPROVAL_PERSON_ORGANIZATION ( #264, #270, #38 ) ;
#34 = EDGE_LOOP ( 'NONE', ( #181, #27, #186, #153 ) ) ;
#35 = EDGE_LOOP ( 'NONE', ( #178, #57, #239, #11 ) ) ;
#36 = DIRECTION ( 'NONE',  ( 1.000000000000000000, 0.000000000000000000, 0.000000000000000000 ) ) ;
#37 = DESIGN_CONTEXT ( 'detailed design', #12, 'design' ) ;
#38 = APPROVAL_ROLE ( '' ) ;
#39 = ORIENTED_EDGE ( 'NONE', *, *, #190, .F. ) ;
#40 = ORIENTED_EDGE ( 'NONE', *, *, #73, .T. ) ;
#41 = PLANE ( 'NONE',  #52 ) ;
#42 = EDGE_CURVE ( 'NONE', #184, #157, #187, .T. ) ;
#43 = CARTESIAN_POINT ( 'NONE',  ( 6.349999999999996980, 6.349999999999996980, 6.349999999999999645 ) ) ;
#44 = PRODUCT_DEFINITION_FORMATION_WITH_SPECIFIED_SOURCE ( 'ANY', '', #251, .NOT_KNOWN. ) ;
#45 = CARTESIAN_POINT ( 'NONE',  ( 0.000000000000000000, 0.000000000000000000, 0.000000000000000000 ) ) ;
#46 = LINE ( 'NONE', #69, #145 ) ;
#47 = APPROVAL ( #50, 'UNSPECIFIED' ) ;
#48 = DIRECTION ( 'NONE',  ( 1.000000000000000000, -2.903408047666378392E-16, 0.000000000000000000 ) ) ;
#49 = VECTOR ( 'NONE', #65, 1000.000000000000000 ) ;
#50 = APPROVAL_STATUS ( 'not_yet_approved' ) ;
#51 = CARTESIAN_POINT ( 'NONE',  ( 0.000000000000000000, 0.000000000000000000, -6.349999999999999645 ) ) ;
#52 = AXIS2_PLACEMENT_3D ( 'NONE', #70, #200, #67 ) ;
#53 = ORIENTED_EDGE ( 'NONE', *, *, #190, .T. ) ;
#54 = LOCAL_TIME ( 11, 11, 7.000000000000000000, #125 ) ;
#55 = DATE_AND_TIME ( #278, #113 ) ;
#56 = PERSON_AND_ORGANIZATION ( #71, #277 ) ;
#57 = ORIENTED_EDGE ( 'NONE', *, *, #136, .F. ) ;
#58 = EDGE_CURVE ( 'NONE', #301, #157, #312, .T. ) ;
#59 = ORIENTED_EDGE ( 'NONE', *, *, #302, .F. ) ;
#60 = DIRECTION ( 'NONE',  ( 0.000000000000000000, 0.000000000000000000, -1.000000000000000000 ) ) ;
#61 = ADVANCED_FACE ( 'NONE', ( #159 ), #288, .F. ) ;
#62 = CARTESIAN_POINT ( 'NONE',  ( -6.349999999999998757, -6.349999999999997868, 6.349999999999999645 ) ) ;
#63 = EDGE_CURVE ( 'NONE', #304, #129, #287, .T. ) ;
#64 = LINE ( 'NONE', #164, #211 ) ;
#65 = DIRECTION ( 'NONE',  ( -6.829619984160658046E-17, 1.000000000000000000, -0.000000000000000000 ) ) ;
#66 = AXIS2_PLACEMENT_3D ( 'NONE', #89, #219, #241 ) ;
#67 = DIRECTION ( 'NONE',  ( 1.000000000000000000, 0.000000000000000000, 0.000000000000000000 ) ) ;
#68 = CC_DESIGN_PERSON_AND_ORGANIZATION_ASSIGNMENT ( #56, #30, ( #44 ) ) ;
#69 = CARTESIAN_POINT ( 'NONE',  ( 6.349999999999999645, -6.350000000000000533, 6.349999999999999645 ) ) ;
#70 = CARTESIAN_POINT ( 'NONE',  ( 0.000000000000000000, 0.000000000000000000, -6.349999999999999645 ) ) ;
#71 = PERSON ( 'UNSPECIFIED', 'UNSPECIFIED', 'UNSPECIFIED', ('UNSPECIFIED'), ('UNSPECIFIED'), ('UNSPECIFIED') ) ;
#72 = LINE ( 'NONE', #177, #309 ) ;
#73 = EDGE_CURVE ( 'NONE', #132, #31, #265, .T. ) ;
#74 = PERSON_AND_ORGANIZATION ( #71, #277 ) ;
#75 = EDGE_LOOP ( 'NONE', ( #53, #213, #262 ) ) ;
#76 = APPROVAL_ROLE ( '' ) ;
#77 = ORIENTED_EDGE ( 'NONE', *, *, #240, .F. ) ;
#78 = ORIENTED_EDGE ( 'NONE', *, *, #165, .T. ) ;
#79 = ORIENTED_EDGE ( 'NONE', *, *, #104, .T. ) ;
#80 = CARTESIAN_POINT ( 'NONE',  ( -6.349999999999998757, -6.349999999999997868, -6.349999999999999645 ) ) ;
#81 = ADVANCED_FACE ( 'NONE', ( #192 ), #193, .F. ) ;
#82 = LOCAL_TIME ( 11, 11, 7.000000000000000000, #128 ) ;
#83 = CARTESIAN_POINT ( 'NONE',  ( 6.349999999999996980, 6.349999999999996980, -6.349999999999999645 ) ) ;
#84 = PERSON_AND_ORGANIZATION_ROLE ( 'design_supplier' ) ;
#85 = DIRECTION ( 'NONE',  ( -0.000000000000000000, -0.000000000000000000, -1.000000000000000000 ) ) ;
#86 = DATE_AND_TIME ( #243, #173 ) ;
#87 = DIRECTION ( 'NONE',  ( 1.000000000000000000, -2.903408047666378392E-16, 0.000000000000000000 ) ) ;
#88 = PRODUCT_DEFINITION ( 'UNKNOWN', '', #44, #37 ) ;
#89 = CARTESIAN_POINT ( 'NONE',  ( 0.000000000000000000, 0.000000000000000000, 6.349999999999999645 ) ) ;
#90 = CARTESIAN_POINT ( 'NONE',  ( 6.349999999999998757, 6.349999999999998757, 6.349999999999999645 ) ) ;
#91 = FACE_OUTER_BOUND ( 'NONE', #35, .T. ) ;
#92 = CC_DESIGN_SECURITY_CLASSIFICATION ( #284, ( #44 ) ) ;
#93 = PLANE ( 'NONE',  #225 ) ;
#94 = DIRECTION ( 'NONE',  ( -1.000000000000000000, -6.829619984160658046E-17, 0.000000000000000000 ) ) ;
#95 = CARTESIAN_POINT ( 'NONE',  ( 0.000000000000000000, 0.000000000000000000, 6.349999999999999645 ) ) ;
#96 = DIRECTION ( 'NONE',  ( 1.000000000000000000, 0.000000000000000000, 0.000000000000000000 ) ) ;
#97 = DATE_AND_TIME ( #230, #54 ) ;
#98 = FACE_OUTER_BOUND ( 'NONE', #5, .T. ) ;
#99 = ORIENTED_EDGE ( 'NONE', *, *, #63, .T. ) ;
#100 =( NAMED_UNIT ( * ) PLANE_ANGLE_UNIT ( ) SI_UNIT ( $, .RADIAN. ) );
#101 = PERSON_AND_ORGANIZATION_ROLE ( 'design_owner' ) ;
#102 = ORIENTED_EDGE ( 'NONE', *, *, #58, .F. ) ;
#103 = MANIFOLD_SOLID_BREP ( 'Í¹Ì¨-À', #256 ) ;
#104 = EDGE_CURVE ( 'NONE', #31, #129, #64, .T. ) ;
#105 = PLANE ( 'NONE',  #66 ) ;
#106 = VECTOR ( 'NONE', #119, 1000.000000000000000 ) ;
#107 = CARTESIAN_POINT ( 'NONE',  ( -6.349999999999999645, -6.350000000000000533, 6.349999999999999645 ) ) ;
#108 = VECTOR ( 'NONE', #87, 1000.000000000000000 ) ;
#109 = CARTESIAN_POINT ( 'NONE',  ( 6.349999999999998757, 6.349999999999998757, -6.349999999999999645 ) ) ;
#110 = PERSON_AND_ORGANIZATION ( #71, #277 ) ;
#111 = DIRECTION ( 'NONE',  ( 0.000000000000000000, 0.000000000000000000, 1.000000000000000000 ) ) ;
#112 = FACE_OUTER_BOUND ( 'NONE', #75, .T. ) ;
#113 = LOCAL_TIME ( 11, 11, 7.000000000000000000, #183 ) ;
#114 = LINE ( 'NONE', #223, #292 ) ;
#115 = CC_DESIGN_DATE_AND_TIME_ASSIGNMENT ( #86, #160, ( #284 ) ) ;
#116 = DIRECTION ( 'NONE',  ( -1.000000000000000000, 2.903408047666378392E-16, 0.000000000000000000 ) ) ;
#117 = DIRECTION ( 'NONE',  ( 0.000000000000000000, 0.000000000000000000, -1.000000000000000000 ) ) ;
#118 = APPROVAL ( #305, 'UNSPECIFIED' ) ;
#119 = DIRECTION ( 'NONE',  ( -0.000000000000000000, -0.000000000000000000, -1.000000000000000000 ) ) ;
#120 = LINE ( 'NONE', #228, #133 ) ;
#121 = EDGE_CURVE ( 'NONE', #290, #237, #197, .T. ) ;
#122 = DIRECTION ( 'NONE',  ( 0.000000000000000000, 0.000000000000000000, 1.000000000000000000 ) ) ;
#123 = CARTESIAN_POINT ( 'NONE',  ( 6.349999999999999645, -6.350000000000000533, 6.349999999999999645 ) ) ;
#124 = AXIS2_PLACEMENT_3D ( 'NONE', #300, #209, #204 ) ;
#125 = COORDINATED_UNIVERSAL_TIME_OFFSET ( 8, 0, .AHEAD. ) ;
#126 = LINE ( 'NONE', #4, #16 ) ;
#127 =( GEOMETRIC_REPRESENTATION_CONTEXT ( 3 ) GLOBAL_UNCERTAINTY_ASSIGNED_CONTEXT ( ( #156 ) ) GLOBAL_UNIT_ASSIGNED_CONTEXT ( ( #179, #100, #295 ) ) REPRESENTATION_CONTEXT ( 'NONE', 'WORKASPACE' ) );
#128 = COORDINATED_UNIVERSAL_TIME_OFFSET ( 8, 0, .AHEAD. ) ;
#129 = VERTEX_POINT ( 'NONE', #274 ) ;
#130 = ADVANCED_FACE ( 'NONE', ( #224 ), #321, .F. ) ;
#131 = APPLICATION_PROTOCOL_DEFINITION ( 'international standard', 'config_control_design', 1994, #307 ) ;
#132 = VERTEX_POINT ( 'NONE', #273 ) ;
#133 = VECTOR ( 'NONE', #117, 1000.000000000000000 ) ;
#134 = EDGE_LOOP ( 'NONE', ( #268, #152, #141 ) ) ;
#135 = EDGE_LOOP ( 'NONE', ( #205, #77, #149, #260 ) ) ;
#136 = EDGE_CURVE ( 'NONE', #237, #184, #317, .T. ) ;
#137 = CALENDAR_DATE ( 2020, 22, 12 ) ;
#138 = PERSON_AND_ORGANIZATION_ROLE ( 'classification_officer' ) ;
#139 = ADVANCED_FACE ( 'NONE', ( #166 ), #41, .F. ) ;
#140 = COORDINATED_UNIVERSAL_TIME_OFFSET ( 8, 0, .AHEAD. ) ;
#141 = ORIENTED_EDGE ( 'NONE', *, *, #282, .F. ) ;
#142 = CARTESIAN_POINT ( 'NONE',  ( -6.349999999999999645, -6.350000000000000533, 6.349999999999999645 ) ) ;
#143 = CARTESIAN_POINT ( 'NONE',  ( -6.349999999999999645, -6.350000000000000533, -6.349999999999999645 ) ) ;
#144 = DIRECTION ( 'NONE',  ( -2.903408047666378392E-16, -1.000000000000000000, 0.000000000000000000 ) ) ;
#145 = VECTOR ( 'NONE', #172, 1000.000000000000000 ) ;
#146 = DIRECTION ( 'NONE',  ( -2.220446049250312588E-16, 1.000000000000000000, 0.000000000000000000 ) ) ;
#147 = CC_DESIGN_DATE_AND_TIME_ASSIGNMENT ( #280, #233, ( #88 ) ) ;
#148 = CARTESIAN_POINT ( 'NONE',  ( -6.349999999999999645, -6.350000000000000533, 6.349999999999999645 ) ) ;
#149 = ORIENTED_EDGE ( 'NONE', *, *, #23, .F. ) ;
#150 = PERSON_AND_ORGANIZATION_ROLE ( 'creator' ) ;
#151 = FACE_OUTER_BOUND ( 'NONE', #135, .T. ) ;
#152 = ORIENTED_EDGE ( 'NONE', *, *, #199, .F. ) ;
#153 = ORIENTED_EDGE ( 'NONE', *, *, #221, .T. ) ;
#154 = PERSON_AND_ORGANIZATION ( #71, #277 ) ;
#155 = ORIENTED_EDGE ( 'NONE', *, *, #221, .F. ) ;
#156 = UNCERTAINTY_MEASURE_WITH_UNIT (LENGTH_MEASURE( 1.000000000000000082E-05 ), #179, 'distance_accuracy_value', 'NONE');
#157 = VERTEX_POINT ( 'NONE', #143 ) ;
#158 = APPROVAL_DATE_TIME ( #281, #270 ) ;
#159 = FACE_OUTER_BOUND ( 'NONE', #214, .T. ) ;
#160 = DATE_TIME_ROLE ( 'classification_date' ) ;
#161 = AXIS2_PLACEMENT_3D ( 'NONE', #14, #188, #111 ) ;
#162 = COORDINATED_UNIVERSAL_TIME_OFFSET ( 8, 0, .AHEAD. ) ;
#163 = DIRECTION ( 'NONE',  ( 0.7071067811865474617, 0.7071067811865474617, 0.000000000000000000 ) ) ;
#164 = CARTESIAN_POINT ( 'NONE',  ( 6.349999999999996980, 6.349999999999996980, -6.349999999999999645 ) ) ;
#165 = EDGE_CURVE ( 'NONE', #304, #232, #114, .T. ) ;
#166 = FACE_OUTER_BOUND ( 'NONE', #134, .T. ) ;
#167 = AXIS2_PLACEMENT_3D ( 'NONE', #51, #259, #28 ) ;
#168 = VECTOR ( 'NONE', #285, 1000.000000000000114 ) ;
#169 = APPROVAL_PERSON_ORGANIZATION ( #74, #47, #254 ) ;
#170 = PLANE ( 'NONE',  #218 ) ;
#171 = CARTESIAN_POINT ( 'NONE',  ( 6.349999999999998757, 6.349999999999998757, -6.349999999999999645 ) ) ;
#172 = DIRECTION ( 'NONE',  ( -0.000000000000000000, -0.000000000000000000, -1.000000000000000000 ) ) ;
#173 = LOCAL_TIME ( 11, 11, 7.000000000000000000, #162 ) ;
#174 = CC_DESIGN_APPROVAL ( #47, ( #88 ) ) ;
#175 = DIRECTION ( 'NONE',  ( -2.220446049250312588E-16, 1.000000000000000000, 0.000000000000000000 ) ) ;
#176 = APPLICATION_PROTOCOL_DEFINITION ( 'international standard', 'config_control_design', 1994, #12 ) ;
#177 = CARTESIAN_POINT ( 'NONE',  ( 6.349999999999996980, 6.349999999999996980, 6.349999999999999645 ) ) ;
#178 = ORIENTED_EDGE ( 'NONE', *, *, #199, .T. ) ;
#179 =( LENGTH_UNIT ( ) NAMED_UNIT ( * ) SI_UNIT ( .MILLI., .METRE. ) );
#180 = LINE ( 'NONE', #303, #202 ) ;
#181 = ORIENTED_EDGE ( 'NONE', *, *, #73, .F. ) ;
#182 = AXIS2_PLACEMENT_3D ( 'NONE', #21, #144, #116 ) ;
#183 = COORDINATED_UNIVERSAL_TIME_OFFSET ( 8, 0, .AHEAD. ) ;
#184 = VERTEX_POINT ( 'NONE', #19 ) ;
#185 = ORIENTED_EDGE ( 'NONE', *, *, #63, .F. ) ;
#186 = ORIENTED_EDGE ( 'NONE', *, *, #253, .T. ) ;
#187 = LINE ( 'NONE', #109, #168 ) ;
#188 = DIRECTION ( 'NONE',  ( 1.000000000000000000, -2.220446049250312588E-16, 0.000000000000000000 ) ) ;
#189 = CC_DESIGN_PERSON_AND_ORGANIZATION_ASSIGNMENT ( #110, #138, ( #284 ) ) ;
#190 = EDGE_CURVE ( 'NONE', #237, #301, #250, .T. ) ;
#191 = ORIENTED_EDGE ( 'NONE', *, *, #8, .F. ) ;
#192 = FACE_OUTER_BOUND ( 'NONE', #242, .T. ) ;
#193 = PLANE ( 'NONE',  #32 ) ;
#194 = ADVANCED_FACE ( 'NONE', ( #91 ), #170, .F. ) ;
#195 = DIRECTION ( 'NONE',  ( 6.829619984160658046E-17, -1.000000000000000000, 0.000000000000000000 ) ) ;
#196 = VECTOR ( 'NONE', #227, 1000.000000000000114 ) ;
#197 = LINE ( 'NONE', #249, #22 ) ;
#198 = DIRECTION ( 'NONE',  ( -0.7071067811865475727, 0.7071067811865475727, 0.000000000000000000 ) ) ;
#199 = EDGE_CURVE ( 'NONE', #208, #184, #248, .T. ) ;
#200 = DIRECTION ( 'NONE',  ( -0.000000000000000000, 0.000000000000000000, 1.000000000000000000 ) ) ;
#201 = DIRECTION ( 'NONE',  ( 0.000000000000000000, 0.000000000000000000, 1.000000000000000000 ) ) ;
#202 = VECTOR ( 'NONE', #234, 1000.000000000000000 ) ;
#203 = VECTOR ( 'NONE', #60, 1000.000000000000000 ) ;
#204 = DIRECTION ( 'NONE',  ( 0.000000000000000000, -0.000000000000000000, 1.000000000000000000 ) ) ;
#205 = ORIENTED_EDGE ( 'NONE', *, *, #282, .T. ) ;
#206 = APPROVAL_DATE_TIME ( #97, #47 ) ;
#207 = PLANE ( 'NONE',  #167 ) ;
#208 = VERTEX_POINT ( 'NONE', #24 ) ;
#209 = DIRECTION ( 'NONE',  ( 0.000000000000000000, 1.000000000000000000, 0.000000000000000000 ) ) ;
#210 = ORIENTED_EDGE ( 'NONE', *, *, #42, .T. ) ;
#211 = VECTOR ( 'NONE', #246, 999.9999999999998863 ) ;
#212 = CC_DESIGN_APPROVAL ( #118, ( #44 ) ) ;
#213 = ORIENTED_EDGE ( 'NONE', *, *, #23, .T. ) ;
#214 = EDGE_LOOP ( 'NONE', ( #191, #185, #78, #279 ) ) ;
#215 = ADVANCED_BREP_SHAPE_REPRESENTATION ( 'BK7-LPBSC-12.7-1064', ( #103, #3, #311 ), #127 ) ;
#216 = DIRECTION ( 'NONE',  ( -2.220446049250312588E-16, 1.000000000000000000, 0.000000000000000000 ) ) ;
#217 = LINE ( 'NONE', #107, #310 ) ;
#218 = AXIS2_PLACEMENT_3D ( 'NONE', #291, #94, #195 ) ;
#219 = DIRECTION ( 'NONE',  ( -0.000000000000000000, 0.000000000000000000, 1.000000000000000000 ) ) ;
#220 = CC_DESIGN_APPROVAL ( #270, ( #284 ) ) ;
#221 = EDGE_CURVE ( 'NONE', #29, #31, #120, .T. ) ;
#222 = LINE ( 'NONE', #269, #296 ) ;
#223 = CARTESIAN_POINT ( 'NONE',  ( -6.349999999999998757, -6.349999999999997868, 6.349999999999999645 ) ) ;
#224 = FACE_OUTER_BOUND ( 'NONE', #34, .T. ) ;
#225 = AXIS2_PLACEMENT_3D ( 'NONE', #43, #198, #293 ) ;
#226 = ADVANCED_FACE ( 'NONE', ( #320 ), #93, .F. ) ;
#227 = DIRECTION ( 'NONE',  ( -0.7071067811865474617, -0.7071067811865474617, 0.000000000000000000 ) ) ;
#228 = CARTESIAN_POINT ( 'NONE',  ( 6.349999999999996980, 6.349999999999996980, 6.349999999999999645 ) ) ;
#229 = LOCAL_TIME ( 11, 11, 7.000000000000000000, #140 ) ;
#230 = CALENDAR_DATE ( 2020, 22, 12 ) ;
#231 = CARTESIAN_POINT ( 'NONE',  ( -6.349999999999998757, -6.349999999999997868, 6.349999999999999645 ) ) ;
#232 = VERTEX_POINT ( 'NONE', #294 ) ;
#233 = DATE_TIME_ROLE ( 'creation_date' ) ;
#234 = DIRECTION ( 'NONE',  ( 0.000000000000000000, 0.000000000000000000, -1.000000000000000000 ) ) ;
#235 = ORIENTED_EDGE ( 'NONE', *, *, #253, .F. ) ;
#236 = MECHANICAL_CONTEXT ( 'NONE', #307, 'mechanical' ) ;
#237 = VERTEX_POINT ( 'NONE', #18 ) ;
#238 = ORIENTED_EDGE ( 'NONE', *, *, #136, .T. ) ;
#239 = ORIENTED_EDGE ( 'NONE', *, *, #121, .F. ) ;
#240 = EDGE_CURVE ( 'NONE', #290, #208, #46, .T. ) ;
#241 = DIRECTION ( 'NONE',  ( 1.000000000000000000, 0.000000000000000000, 0.000000000000000000 ) ) ;
#242 = EDGE_LOOP ( 'NONE', ( #210, #102, #39, #238 ) ) ;
#243 = CALENDAR_DATE ( 2020, 22, 12 ) ;
#244 = ORIENTED_EDGE ( 'NONE', *, *, #8, .T. ) ;
#245 = ADVANCED_FACE ( 'NONE', ( #252 ), #2, .T. ) ;
#246 = DIRECTION ( 'NONE',  ( -0.7071067811865475727, -0.7071067811865475727, 0.000000000000000000 ) ) ;
#247 = APPROVAL_PERSON_ORGANIZATION ( #6, #118, #76 ) ;
#248 = LINE ( 'NONE', #171, #49 ) ;
#249 = CARTESIAN_POINT ( 'NONE',  ( 6.349999999999998757, 6.349999999999998757, 6.349999999999999645 ) ) ;
#250 = LINE ( 'NONE', #271, #196 ) ;
#251 = PRODUCT ( 'BK7-LPBSC-12.7-1064', 'BK7-LPBSC-12.7-1064', '', ( #236 ) ) ;
#252 = FACE_OUTER_BOUND ( 'NONE', #9, .T. ) ;
#253 = EDGE_CURVE ( 'NONE', #232, #29, #222, .T. ) ;
#254 = APPROVAL_ROLE ( '' ) ;
#255 = DIRECTION ( 'NONE',  ( -0.7071067811865475727, -0.7071067811865475727, 0.000000000000000000 ) ) ;
#256 = CLOSED_SHELL ( 'NONE', ( #81, #272, #194, #1, #139 ) ) ;
#257 = ORIENTED_EDGE ( 'NONE', *, *, #165, .F. ) ;
#258 = CALENDAR_DATE ( 2020, 22, 12 ) ;
#259 = DIRECTION ( 'NONE',  ( 0.000000000000000000, 0.000000000000000000, 1.000000000000000000 ) ) ;
#260 = ORIENTED_EDGE ( 'NONE', *, *, #58, .T. ) ;
#261 = APPROVAL_DATE_TIME ( #55, #118 ) ;
#262 = ORIENTED_EDGE ( 'NONE', *, *, #121, .T. ) ;
#263 = CARTESIAN_POINT ( 'NONE',  ( 6.349999999999998757, 6.349999999999998757, 6.349999999999999645 ) ) ;
#264 = PERSON_AND_ORGANIZATION ( #71, #277 ) ;
#265 = LINE ( 'NONE', #314, #108 ) ;
#266 = APPROVAL_STATUS ( 'not_yet_approved' ) ;
#267 = CC_DESIGN_PERSON_AND_ORGANIZATION_ASSIGNMENT ( #298, #101, ( #251 ) ) ;
#268 = ORIENTED_EDGE ( 'NONE', *, *, #42, .F. ) ;
#269 = CARTESIAN_POINT ( 'NONE',  ( 6.349999999999996980, 6.349999999999996980, 6.349999999999999645 ) ) ;
#270 = APPROVAL ( #266, 'UNSPECIFIED' ) ;
#271 = CARTESIAN_POINT ( 'NONE',  ( 6.349999999999998757, 6.349999999999998757, 6.349999999999999645 ) ) ;
#272 = ADVANCED_FACE ( 'NONE', ( #151 ), #25, .F. ) ;
#273 = CARTESIAN_POINT ( 'NONE',  ( -6.350000000000002309, 6.350000000000001421, -6.349999999999999645 ) ) ;
#274 = CARTESIAN_POINT ( 'NONE',  ( -6.349999999999998757, -6.349999999999997868, -6.349999999999999645 ) ) ;
#275 = PRODUCT_RELATED_PRODUCT_CATEGORY ( 'detail', '', ( #251 ) ) ;
#276 = EDGE_LOOP ( 'NONE', ( #306, #155, #316, #99 ) ) ;
#277 = ORGANIZATION ( 'UNSPECIFIED', 'UNSPECIFIED', '' ) ;
#278 = CALENDAR_DATE ( 2020, 22, 12 ) ;
#279 = ORIENTED_EDGE ( 'NONE', *, *, #286, .T. ) ;
#280 = DATE_AND_TIME ( #258, #82 ) ;
#281 = DATE_AND_TIME ( #137, #229 ) ;
#282 = EDGE_CURVE ( 'NONE', #157, #208, #126, .T. ) ;
#283 = SHAPE_DEFINITION_REPRESENTATION ( #20, #215 ) ;
#284 = SECURITY_CLASSIFICATION ( '', '', #313 ) ;
#285 = DIRECTION ( 'NONE',  ( -0.7071067811865474617, -0.7071067811865474617, 0.000000000000000000 ) ) ;
#286 = EDGE_CURVE ( 'NONE', #232, #132, #180, .T. ) ;
#287 = LINE ( 'NONE', #62, #203 ) ;
#288 = PLANE ( 'NONE',  #161 ) ;
#289 = DIRECTION ( 'NONE',  ( 0.7071067811865475727, -0.7071067811865475727, 0.000000000000000000 ) ) ;
#290 = VERTEX_POINT ( 'NONE', #123 ) ;
#291 = CARTESIAN_POINT ( 'NONE',  ( 6.349999999999998757, 6.349999999999998757, 6.349999999999999645 ) ) ;
#292 = VECTOR ( 'NONE', #175, 1000.000000000000000 ) ;
#293 = DIRECTION ( 'NONE',  ( 0.7071067811865475727, 0.7071067811865475727, 0.000000000000000000 ) ) ;
#294 = CARTESIAN_POINT ( 'NONE',  ( -6.350000000000002309, 6.350000000000001421, 6.349999999999999645 ) ) ;
#295 =( NAMED_UNIT ( * ) SI_UNIT ( $, .STERADIAN. ) SOLID_ANGLE_UNIT ( ) );
#296 = VECTOR ( 'NONE', #48, 1000.000000000000000 ) ;
#297 = CLOSED_SHELL ( 'NONE', ( #226, #61, #130, #245, #308 ) ) ;
#298 = PERSON_AND_ORGANIZATION ( #71, #277 ) ;
#299 = PERSON_AND_ORGANIZATION ( #71, #277 ) ;
#300 = CARTESIAN_POINT ( 'NONE',  ( -6.349999999999999645, -6.350000000000000533, 6.349999999999999645 ) ) ;
#301 = VERTEX_POINT ( 'NONE', #148 ) ;
#302 = EDGE_CURVE ( 'NONE', #29, #304, #72, .T. ) ;
#303 = CARTESIAN_POINT ( 'NONE',  ( -6.350000000000002309, 6.350000000000001421, 6.349999999999999645 ) ) ;
#304 = VERTEX_POINT ( 'NONE', #231 ) ;
#305 = APPROVAL_STATUS ( 'not_yet_approved' ) ;
#306 = ORIENTED_EDGE ( 'NONE', *, *, #104, .F. ) ;
#307 = APPLICATION_CONTEXT ( 'configuration controlled 3d designs of mechanical parts and assemblies' ) ;
#308 = ADVANCED_FACE ( 'NONE', ( #98 ), #207, .F. ) ;
#309 = VECTOR ( 'NONE', #255, 999.9999999999998863 ) ;
#310 = VECTOR ( 'NONE', #36, 1000.000000000000000 ) ;
#311 = AXIS2_PLACEMENT_3D ( 'NONE', #45, #122, #96 ) ;
#312 = LINE ( 'NONE', #142, #26 ) ;
#313 = SECURITY_CLASSIFICATION_LEVEL ( 'unclassified' ) ;
#314 = CARTESIAN_POINT ( 'NONE',  ( 6.349999999999996980, 6.349999999999996980, -6.349999999999999645 ) ) ;
#315 = CC_DESIGN_PERSON_AND_ORGANIZATION_ASSIGNMENT ( #154, #84, ( #44 ) ) ;
#316 = ORIENTED_EDGE ( 'NONE', *, *, #302, .T. ) ;
#317 = LINE ( 'NONE', #90, #106 ) ;
#318 = CC_DESIGN_PERSON_AND_ORGANIZATION_ASSIGNMENT ( #299, #150, ( #88 ) ) ;
#319 = DIRECTION ( 'NONE',  ( -6.829619984160658046E-17, 1.000000000000000000, -0.000000000000000000 ) ) ;
#320 = FACE_OUTER_BOUND ( 'NONE', #276, .T. ) ;
#321 = PLANE ( 'NONE',  #182 ) ;
ENDSEC;
END-ISO-10303-21;
